  0
SECTION
  2
BLOCKS
  0
ENDSEC
  0
SECTION
  2
ENTITIES
  0
LINE
  8
0
 10
10.5252
 20
0.0196381
 11
12.4115
 21
0.175934
  0
LINE
  8
0
 10
12.4115
 20
0.175934
 11
14.1449
 21
0.936279
  0
LINE
  8
0
 10
14.1449
 20
0.936279
 11
15.5376
 21
2.21826
  0
LINE
  8
0
 10
15.5376
 20
2.21826
 11
16.4384
 21
3.88297
  0
LINE
  8
0
 10
16.4384
 20
3.88297
 11
16.75
 21
5.75
  0
LINE
  8
0
 10
16.75
 20
5.75
 11
16.75
 21
9
  0
LINE
  8
0
 10
16.75
 20
9
 11
16.4384
 21
10.867
  0
LINE
  8
0
 10
16.4384
 20
10.867
 11
15.5376
 21
12.5317
  0
LINE
  8
0
 10
15.5376
 20
12.5317
 11
14.1449
 21
13.8137
  0
LINE
  8
0
 10
14.1449
 20
13.8137
 11
12.4115
 21
14.5741
  0
LINE
  8
0
 10
12.4115
 20
14.5741
 11
10.5252
 21
14.7303
  0
LINE
  8
0
 10
10.5252
 20
14.7303
 11
8.45
 21
14.7338
  0
LINE
  8
0
 10
8.45
 20
14.7338
 11
8.45
 21
23
  0
LINE
  8
0
 10
8.45
 20
23
 11
1.61803
 21
29.1756
  0
LINE
  8
0
 10
1.61803
 20
29.1756
 11
0.618027
 21
29.9021
  0
LINE
  8
0
 10
0.618027
 20
29.9021
 11
-0.618027
 21
29.9021
  0
LINE
  8
0
 10
-0.618027
 20
29.9021
 11
-1.61803
 21
29.1756
  0
LINE
  8
0
 10
-1.61803
 20
29.1756
 11
-8.54999
 21
23
  0
LINE
  8
0
 10
-8.54999
 20
23
 11
-8.54999
 21
7
  0
LINE
  8
0
 10
-8.54999
 20
7
 11
-8.51549
 21
7
  0
LINE
  8
0
 10
-8.51549
 20
7
 11
-8.45419
 21
6.22128
  0
LINE
  8
0
 10
-8.45419
 20
6.22128
 11
-8.18404
 21
5.09599
  0
LINE
  8
0
 10
-8.18404
 20
5.09599
 11
-7.74117
 21
4.02681
  0
LINE
  8
0
 10
-7.74117
 20
4.02681
 11
-7.13649
 21
3.04007
  0
LINE
  8
0
 10
-7.13649
 20
3.04007
 11
-6.3849
 21
2.16008
  0
LINE
  8
0
 10
-6.3849
 20
2.16008
 11
-5.50491
 21
1.40849
  0
LINE
  8
0
 10
-5.50491
 20
1.40849
 11
-4.51817
 21
0.803818
  0
LINE
  8
0
 10
-4.51817
 20
0.803818
 11
-3.44899
 21
0.360947
  0
LINE
  8
0
 10
-3.44899
 20
0.360947
 11
-2.3237
 21
0.0907898
  0
LINE
  8
0
 10
-2.3237
 20
0.0907898
 11
-1.17
 21
0
  0
LINE
  8
0
 10
-1.17
 20
0
 11
10.5252
 21
0.0196381
  0
LINE
  8
0
 10
9.76393
 20
3.57077
 11
8.64885
 21
4.13893
  0
LINE
  8
0
 10
8.64885
 20
4.13893
 11
8.45
 21
4.33778
  0
LINE
  8
0
 10
8.45
 20
4.33778
 11
8.45
 21
10.4122
  0
LINE
  8
0
 10
8.45
 20
10.4122
 11
8.64885
 21
10.6111
  0
LINE
  8
0
 10
8.64885
 20
10.6111
 11
9.76393
 21
11.1792
  0
LINE
  8
0
 10
9.76393
 20
11.1792
 11
11
 21
11.375
  0
LINE
  8
0
 10
11
 20
11.375
 11
12.2361
 21
11.1792
  0
LINE
  8
0
 10
12.2361
 20
11.1792
 11
13.3511
 21
10.6111
  0
LINE
  8
0
 10
13.3511
 20
10.6111
 11
13.55
 21
10.4122
  0
LINE
  8
0
 10
13.55
 20
10.4122
 11
13.55
 21
4.33778
  0
LINE
  8
0
 10
13.55
 20
4.33778
 11
13.3511
 21
4.13893
  0
LINE
  8
0
 10
13.3511
 20
4.13893
 11
12.2361
 21
3.57077
  0
LINE
  8
0
 10
12.2361
 20
3.57077
 11
11
 21
3.375
  0
LINE
  8
0
 10
11
 20
3.375
 11
9.76393
 21
3.57077
  0
ENDSEC
  0
SECTION
  2
OBJECTS
  0
DICTIONARY
  0
ENDSEC
  0
EOF
